Long Day Sin Music, Lyrics, and Guitar Tabs

SINNERS UNITE

SIN CLUB MEMBERSHIP

YouTube Videos

- Music by Long Day Sin:

  •   America Owns America Wins

  •   I Want Money (Money, TWIW)

  •   I Want Money - Guitar Solo

  •   ME Generation

  •   River Run Water Fall

  •   White Pride

 

- Arduino device tracks

  •   White Pride
  •   Money TWIW - Part 1
  •   Money TWIW - Part 2
  •   Money TWIW - Part 3

Get the AUDIO

Amazon
Amazon
cd baby
cdbaby
iTunes
  iTunes

River Run Water Fall Guitar Tab

River Run Water Fall Guitar Tab

 

A condensed version of this song can be heard on YouTube.

Guitar Solo: Riff 1

 

E|---------------------------------------------------------------------------------------------------------------------

B|---------------------------------------------------------------------------------------------------------------------

G|-------7--8--7----5--5----7--7--7----------7--8--7---5--7--5--4--5--4---------------------------------------

D|-----------------------------------------------------------------------------------7--5--5----7--7-----------------

A|----------------------------------------------------------------------------------------------------------------------

E|----------------------------------------------------------------------------------------------------------------------

 

Guitar Solo: Riff 2

 

E|---------------------------------------------------------------------------------------------------------------------

B|------------------------------------------------------17-----15--13--17--15-------------------------------------

G|----------------5--7--8--7--5--7--7------------------------------------------------------------------------------

D|------5--7----------------------------------------------------------------------------------------------------------

A|---------------------------------------------------------------------------------------------------------------------

E|---------------------------------------------------------------------------------------------------------------------

 

Guitar Solo: Riff 3

 

E|---------------------------------------------------------------------------------------------------------------------

B|---------------------------------------------------------------------------------------------------------------------

G|-----0--2--5------0--2--7------0--2--5--7--8--7--5--7--7--7--------------------------------------------------

D|---------------------------------------------------------------------------------------------------------------------

A|---------------------------------------------------------------------------------------------------------------------

E|---------------------------------------------------------------------------------------------------------------------

 

Guitar Solo: Riff 4 – repeats multiple times

 

E|---------------------------------------------------------------------------------------------------------------------

B|---------------------------------------------------------------------------------------------------------------------

G|------14--10------------------------14--10----------------------------14--10-----------------------------------

D|----------------12--14--10--12---------------12--14--10--12-------------------12--14--10--12-------------

A|---------------------------------------------------------------------------------------------------------------------

E|---------------------------------------------------------------------------------------------------------------------

 

Guitar Solo: Riff 5

 

E|------------17----------17-----------------------------------------------------------------------------------------

B|-----20-----------20---------20-----------------------------------------------------------------------------------

G|---------------------------------------------------------------------------------------------------------------------

D|---------------------------------------------------------------------------------------------------------------------

A|---------------------------------------------------------------------------------------------------------------------

E|---------------------------------------------------------------------------------------------------------------------

 

© 2012 Cause Static Music

 

top of page